Gitar Tabları Çalma Açıklamaları

+ Yorum Gönder
Müzik Köşesi ve Müzik Türleri ve Enstrümanları Bölümünden Gitar Tabları Çalma Açıklamaları ile ilgili Kısaca Bilgi
  1. 1
    MaviAdam
    Özel Üye
    Reklam

    Gitar Tabları Çalma Açıklamaları

    Reklam



    Gitar Tabları Çalma Açıklamaları

    Forum Alev
    DUMAN - SENİ KENDİME SAKLADIM


    E||--------------------------|-----------------------|---------------------------|--------------------------|--------------||
    B||-----6--6--6--5--6/-8--9--|-----------6--5--------|-----------6--5------------|--------------------------|--------------||
    G||--6-----------------------|--5--5--6--------6--5--|--5--5--6--------6--5------|--------------------------|--------------||
    D||--------------------------|-----------------------|-----------------------6-6-|--6--8--6--5--6-----5--6--|--6--5--5-----||
    A||--------------------------|-----------------------|---------------------------|-----------------8--------|-----------8--||
    E||--------------------------|-----------------------|---------------------------|--------------------------|--------------||

    solo calınırken C#/C/Fm akorlarını kullanın toplamda 5 kere donuyo ama ilkini braz farklı yapyosunuz ritm olarak C#yi briaz fazla calın


    *ONU BUNU BİLMEM... ...İSTERLERSE DARILSIN
    E||------------------------|-----------------|--------------------------|--------------------------|------||
    B||--6/---1/---6--6--6--6--|--6--5--5/-8--9--|--1/-6--5--1--1/-6--5--1--|--1/-6--5--1--1/-6--5--1--|------||
    G||------------------------|-----------------|--------------------------|--------------------------|------||
    D||------------------------|-----------------|--------------------------|--------------------------|------||
    A||------------------------|-----------------|--------------------------|--------------------------|------||
    E||------------------------|-----------------|--------------------------|--------------------------|------||
    burda da C#/C/Fm akorları olcak


    *ONU BUNU BİLMEM... ...İSTERLERSE SATILSIN
    E||--------------------|-----------------|--------------------------|--------------------------|------||
    B||---1/---6--6--6--6--|--6--5--5/-8--9--|--1/-6--5--1--1/-6--5--1--|--1/-6--5--1--1/-6--5--1--|------||
    G||--------------------|-----------------|--------------------------|--------------------------|------||
    D||--------------------|-----------------|--------------------------|--------------------------|------||
    A||--------------------|-----------------|--------------------------|--------------------------|------||
    E||--------------------|-----------------|--------------------------|--------------------------|------||


    E||--3----3----|--4----4----|--1----1----1----|| OOOO..
    B||--5----5----|--6----6----|--2----2----2----|| SENİ KENDİME SAKLADIM
    G||--5----5----|--6----6----|--3----3----3----|| OOOOAAA...
    D||--5----5----|--6----6----|--3----3----3----|| HEPSİNİ BEN HESAPLADIM
    A||--3----3----|--4----4----|--1----1----1----||
    E||------------|------------|-----------------|| x2


    E||--------------------------|-----------------------|---------------------------|--------------------------|--------------||
    B||-----6--6--6--5--6/-8--9--|-----------6--5--------|-----------6--5------------|--------------------------|--------------||
    G||--6-----------------------|--5--5--6--------6--5--|--5--5--6--------6--5------|--------------------------|--------------||
    D||--------------------------|-----------------------|-----------------------6-6-|--6--8--6--5--6-----5--6--|--6--5--5-----||
    A||--------------------------|-----------------------|---------------------------|-----------------8--------|-----------8--||
    E||--------------------------|-----------------------|---------------------------|--------------------------|--------------||

    solo calınırken C#/C/Fm akorlarını kullanın toplamda 5 kere donuyo ama ilkini braz farklı yapyosunuz ritm olarak C#yi biraz fazla calın


    *ONU BUNU BİLMEM... ...İSTERLERSE BARIŞSIN
    E||------------------------|-----------------|--------------------------|--------------------------|------||
    B||--6/---1/---6--6--6--6--|--6--5--5/-8--9--|--1/-6--5--1--1/-6--5--1--|--1/-6--5--1--1/-6--5--1--|------||
    G||------------------------|-----------------|--------------------------|--------------------------|------||
    D||------------------------|-----------------|--------------------------|--------------------------|------||
    A||------------------------|-----------------|--------------------------|--------------------------|------||
    E||------------------------|-----------------|--------------------------|--------------------------|------||
    burda da C#/C/Fm akorları olcak


    E||--3----3----|--4----4----|--1----1----1----|| OOOO..
    B||--5----5----|--6----6----|--2----2----2----|| SENİ KENDİME SAKLADIM
    G||--5----5----|--6----6----|--3----3----3----|| OOOOAAA...
    D||--5----5----|--6----6----|--3----3----3----|| HEPSİNİ BEN HESAPLADIM
    A||--3----3----|--4----4----|--1----1----1----||
    E||------------|------------|-----------------|| x2 (2.de HEPSİNİ BEN HESAPLADIM demiyo)


    solo (ama bu sadece nerden calıcagınıza yardmcı olablir yane sarkya hala alsma asamasındaym solonun srasını tam bilmyorum
    zaten acaip bi sey yapmıslar kafalarına gore takılmıslar dedigim gibi perdelerin yerleri dogru en azında sarkyla beraber
    calınca uyuyo ama sırasını bilmiyorum yakın biseyler yazdım ama)

    E||-----------------------|-----------------------|----------------------|----------------------|--------------------|
    B||--5/---8----8----8h-9--|--9p---8----8/---11----|--9----9----9p---8----|--8----8p---6----6p---|--5----6----5--6----|
    G||-----------------------|-----------------------|----------------------|----------------------|--------------------|
    D||-----------------------|-----------------------|----------------------|----------------------|--------------------|
    A||-----------------------|-----------------------|----------------------|----------------------|--------------------|
    E||-----------------------|-----------------------|----------------------|----------------------|--------------------|


    ----------------------|-----------------------|--------------------------|------------------------|----------------------|------------||
    --8----8----8----6/---|--9----8/---11----9----|--11/---13----13h---14----|--13/---11/---9/---8/---|--6/---8----8----8----|--8----8----||
    ----------------------|-----------------------|--------------------------|------------------------|----------------------|------------||
    ----------------------|-----------------------|--------------------------|------------------------|----------------------|------------||
    ----------------------|-----------------------|--------------------------|------------------------|----------------------|------------||
    ----------------------|-----------------------|--------------------------|------------------------|----------------------|------------||
    burda da C/C#/A#m akorları var nakarattaki akorlar


    E||--3----3----|--4----4----|--1----1----1----|| OOOO..
    B||--5----5----|--6----6----|--2----2----2----|| SENİ KENDİME SAKLADIM
    G||--5----5----|--6----6----|--3----3----3----|| OOOOAAA...
    D||--5----5----|--6----6----|--3----3----3----|| HEPSİNİ BEN HESAPLADIM
    A||--3----3----|--4----4----|--1----1----1----||
    E||------------|------------|-----------------|| x2


    E||--------------------------|-----------------------|---------------------------|--------------------|-----------------------------------||
    B||-----6--6--6--5--6/-8--9--|-----------6--5--------|-----------6--5------------|--------------------|-----------------------------------||
    G||--6-----------------------|--5--5--6--------6--5--|--5--5--6--------6--5------|--------------------|-----------------------------------||
    D||--------------------------|-----------------------|-----------------------6-6-|--6--8--6--5--6-----|--------5-6---5-6-8-6-5-6---5------||
    A||--------------------------|-----------------------|---------------------------|-----------------6--|--5-6-8-----8-------------8---6-8--||
    E||--------------------------|-----------------------|---------------------------|--------------------|-----------------------------------||

    solo calınırken C#/C/Fm akorlarını kullanın toplamda 5 kere donuyo ama ilkini braz farklı yapyosunuz ritm olarak C#yi briaz fazla calın


    SENİ KENDİME SAKLADIM
    ---------------------
    C# C Fm
    onu bunu bilmem anlamam
    C# C Fm
    kim ne derse desin lan
    C# C Fm
    arkanizdan yol almam
    C# C Fm
    onlar ister alınsın
    C# C Fm
    isterlerse darılsın

    C# C Fm
    onu bunu bilmem karışmam
    C# C Fm
    kim ne derse desin lan
    C# C Fm
    ben alınıp satılmam
    C# C Fm
    onlar ister alınsın
    C# C Fm
    isterlerse satılsın

    C C# A#m
    oooo ooo aaaa seni kendime sakladim
    C C# A#m
    oooo aaa aaaa hepsini ben hesapladim


    C# C Fm
    onu bunu bilmem anlamam
    C# C Fm
    kim ne derse desin lan
    C# C Fm
    işte meydan işte can
    C# C Fm
    onlar ister kapışsın
    C# C Fm
    isterlerse barışsın


    C C# A#m
    oooo ooo aaaa seni kendime sakladim
    C C# A#m
    oooo aaa aaaa hepsini ben hesapladim


    :::::::::::::::::::::::::::::::::::::::::::::::::: ::::::::::::::::::
    ::::::::::::::::::::::::::::::::::::::::::::::::::
    :::::::::::::::::::::::::::::::::::::::::::::::::: :::::::::::::::::::::::::::


    mfö-sarı laleler


    Am Dm
    Uykulu gözlerle döndüm rüyamdan ) )
    G F E
    Sana sarı laleler aldım çiçek pazarından ) )
    Am Dm (I)
    Sen olmasan buralara gelemezdim ben ) )
    G F E
    Sevemezdim bu şehri anlamazdım dilinden ) )
    (II)
    Dm E
    Nasıl bir sevdaysa bu karşı koyamam )
    Dm E
    Dayanamam kıskanırım seni paylaşamam )
    Dm
    Satırlar uçar gider aklımdan )
    F Dm E
    Sana sarı laleler aldım çiçek pazarından )


    Tekrar (I)

    Dm E
    Yeniden başalasam bu sefer korkmadan
    Dm E
    Koklayıp birbirimizi çöpe atmadan
    Dm
    Satırlar uçar gider aklımdan
    F Dm E
    Sana sarı laleler aldım çiçek pazarından









    DUMAN - GEÇMİŞ OLSUN




    E||--------------------------||
    B||--------------------------||
    G||--------------------------|| sozler baslayana
    D||--9---9---9---9---6h7p6h7-|| kadar 8 kere
    A||--9---9---9---9---6h7p6h7-||
    E||--7---7---7---7-----------||

    introdaki 2.gitar

    E||--2--2--2--2--0--|--5--4b-2--2--2--2--0--|--2--2--2--2--0--5--4b-2--||
    B||-----------------|-----------------------|--------------------------||
    G||-----------------|-----------------------|--------------------------||
    D||-----------------|-----------------------|--------------------------||
    A||-----------------|-----------------------|--------------------------||
    E||-----------------|-----------------------|--------------------------||

    B5
    YORULDUM SIKILDIM
    PEŞİNDEN KOŞA KOŞA burada surekli B5 palm muting seklinde calınıyo
    BEN ANLAMAM GUZELİM
    SEN ANLAT KULAHIMA

    G#5
    YASAKMIŞ GUNAHMIŞ
    KONUŞSUN DOYA DOYA

    B5
    ZORLAMA GUZELİM
    KARIŞMAM ARANIZA

    aradaki solo
    (bu kısımları 2.gitarın soloda nerde caldıgını gostermsi için dedim)
    E||--------------|--8-7---------------------------|--------------|-----------------||
    B||-----7--8--8--|------10-8-7---7-8--------------|-----7--8--8--|-----7--8--8--8r-||
    G||--9-----------|-------------9------------------|--9-----------|--9--------------||
    D||--------------|--------------------------------|--------------|-----------------||
    A||--------------|--------------------------------|--------------|-----------------||
    E||--------------|--------------------------------|--------------|-----------------||
    1.kısım© 2.kısım(B5) 1.kısım 2.kısım(nakarata kadar)


    2.gitar

    E||--------3----------3----|--------------------------||
    B||--------5----------5----|--------------------------||
    G||--------5----------5----|--4--x--4--x--4--x--4--x--||
    D||-----5--5-------5--5----|--4--x--4--x--4--x--4--x--||
    A||--3--3--3----3--3--3----|--2--x--2--x--2--x--2--x--|| bu iki kere calınıyo nkarata girmeden once
    E||------------------------|--------------------------|| B5 vuruluyor.
    ......İLKKISIM|......İKNCİKISIM||

    ****burada, 2.gtarın ilk kısmı(C akorlu olan), 2.kısmıysa B5 li yer.

    C5 A5 B5
    ARANIZDAN ÇIKMADI BİR ADAM
    C5 A5 B5
    YOLUNUZA ERMEDİ HİÇ KAFAM
    C5 A5 B5
    KAÇAMADIM O DA BENİM HATAM
    C5 A5 B5
    GEÇMİŞ OLSUN ŞİMDİ HERŞEY YALAN

    ***NKARATTA C-Am-B akorlarıyla arpej de var
    ilk mısradan sonra B5akorundan sonra sole yapbilirsiniz:

    E||--------------------------||
    B||--------------------------||
    G||--------------------------||
    D||--10--10--10--10--10--10--||
    A||--9---9---9---9---9---9---||
    E||--7---7---7---7---7---7---||

    buda son iki mısrada calınıyo gibi geldi (fill diyebiliriz)

    E||----------------------------------|----------------------------------|
    B||----------------------------------|----------------------------------|
    G||----------------------------------|----------------------------------| ÜÇÜNCÜ MISRADA BURASI
    D||--17--17--17--17--17--14--14--14--|--14--14--16--16--16--16--16--16--|
    A||----------------------------------|----------------------------------|
    E||----------------------------------|----------------------------------|


    ----------------------------------|------------------------------|------------------------||
    ----------------------------------|------------------------------|------------------------||
    ----------------------------------|------------------------------|------------------------|| SON MISRADA BURASI
    --17--17--17--17--17--14--14--14--|--14--9--9/-16--16--16/-9--9/-|--16--16--16--16--16----||
    ----------------------------------|------------------------------|------------------------||
    ----------------------------------|------------------------------|------------------------||

    ınrto tekrar çalınıyo

    E||--------------------------||
    B||--------------------------||
    G||--------------------------||
    D||--9---9---9---9---6h7p6h7-|| 4 kere
    A||--9---9---9---9---6h7p6h7-||
    E||--7---7---7---7-----------||

    2.gitar

    E||--2--2--2--2--0--|--5--4b-2--2--2--2--0--|--2--2--2--2--0--5--4b-2--||
    B||-----------------|-----------------------|--------------------------||
    G||-----------------|-----------------------|--------------------------||
    D||-----------------|-----------------------|--------------------------||
    A||-----------------|-----------------------|--------------------------||
    E||-----------------|-----------------------|--------------------------||


    B5
    DARALIDIM USANDIM
    ELİNDEN KAÇA KAÇA
    BEN ANLAMAM GUZELİM
    UZAK DUR YAKINIMA

    G#5
    ZARARMIŞ ZİYANMIŞ
    KONUŞSUN DOYA DOYA

    B5
    ELDE Mİ GUZELİM
    ALIŞTIM ACISINA


    aradaki solo
    (bu kısımları 2.gitarın soloda nerde caldıgını gostermsi için dedim)
    E||--------------|--8-7---------------------------|--------------|-----------------||
    B||-----7--8--8--|------10-8-7---7-8--------------|-----7--8--8--|-----7--8--8--8r-||
    G||--9-----------|-------------9------------------|--9-----------|--9--------------||
    D||--------------|--------------------------------|--------------|-----------------||
    A||--------------|--------------------------------|--------------|-----------------||
    E||--------------|--------------------------------|--------------|-----------------||
    1.kısım© 2.kısım(B5) 1.kısım 2.kısım(nakarata kadar)


    2.gitar

    E||--------3----------3----|--------------------------||
    B||--------5----------5----|--------------------------||
    G||--------5----------5----|--4--x--4--x--4--x--4--x--||
    D||-----5--5-------5--5----|--4--x--4--x--4--x--4--x--||
    A||--3--3--3----3--3--3----|--2--x--2--x--2--x--2--x--|| bu iki kere calınıyo nkarata girmeden once
    E||------------------------|--------------------------|| B5 vuruluyor.
    ......İLKKISIM|......İKNCİKISIM||

    ****burada, 2.gtarın ilk kısmı(C akorlu olan), 2.kısmıysa B5 li yer.

    C5 A5 B5
    ARANIZDAN ÇIKMADI BİR ADAM
    C5 A5 B5
    YOLUNUZA ERMEDİ HİÇ KAFAM
    C5 A5 B5
    KAÇAMADIM O DA BENİM HATAM
    C5 A5 B5
    GEÇMİŞ OLSUN ŞİMDİ HERŞEY YALAN

    ***NKARATTA C-Am-B akorlarıyla arpej(akor da yapablrsiniz) de var
    ilk mısradan sonra B5akorundan sonra sole yapbilirsiniz:

    E||--------------------------||
    B||--------------------------||
    G||--------------------------||
    D||--10--10--10--10--10--10--||
    A||--9---9---9---9---9---9---||
    E||--7---7---7---7---7---7---||

    buda son iki mısrada calınıyo gibi geldi (fill diyebiliriz)

    E||----------------------------------|----------------------------------|
    B||----------------------------------|----------------------------------|
    G||----------------------------------|----------------------------------| ÜÇÜNCÜ MISRADA BURASI
    D||--17--17--17--17--17--14--14--14--|--14--14--16--16--16--16--16--16--|
    A||----------------------------------|----------------------------------|
    E||----------------------------------|----------------------------------|


    ----------------------------------|------------------------------|------------------------||
    ----------------------------------|------------------------------|------------------------||
    ----------------------------------|------------------------------|------------------------|| SON MISRADA BURASI
    --17--17--17--17--17--14--14--14--|--14--9--9/-16--16--16/-9--9/-|--16--16--16--16--16----||
    ----------------------------------|------------------------------|------------------------||
    ----------------------------------|------------------------------|------------------------||

    solo

    E||-----------------------------|--------------------------------|--------------------------|
    B||-----------------------------|--------------------------------|--------------------------|
    G||-----------------------------|--------------------------------|--------------------------|
    D||-----------------------------|--------------------------------|--------------------------|
    A||-----------------------------|--------------------------------|--------------------------|
    E||--8--7--7--7--8--11--11--11--|--12--12--14--12--11--11--8--8--|--7--7--7--5--7--7--7--8--|


    ----------------------------------|------------------|----------------------------------|----------------------------------|
    ----------------------------------|------------------|----------------------------------|----------------------------------|
    ----------------------------------|------------------|----------------------------------|----------------------------------|
    ----------------------------------|------------------|----------------------------------|----------------------------------|
    ----------------------------------|------------------|--15--14--14--15--14--14--15--14--|----------14--15--14--14--15--14--|
    --11--11--12--12--12--14--14--15--|--17--17--17--17--|----------------------------------|--16--17--------------------------|


    --------------|----------------------------------|----------------------------------|--------------||
    --------------|----------------------------------|----------------------------------|--------------||
    --------------|----------------------------------|----------------------------------|--------------||
    --------------|----------------------------------|----------------------------------|--------------||
    --18--18--18--|--15--14--14--15--14--14--15--14--|----------14--15--14--14--15--14--|--18--18--18--||
    --------------|----------------------------------|--16--17--------------------------|--------------||

    |----------------------------------|----------------------------------|----------------------------------|
    |----------------------------------|----------------------------------|----------------------------------|
    |--13--13--13--12--12--12--13--13--|--16--16--16--17--17--17--16--16--|--16--17--17--17--17--18--18--18--|
    |----------------------------------|----------------------------------|----------------------------------|
    |----------------------------------|----------------------------------|----------------------------------|
    |----------------------------------|----------------------------------|----------------------------------|


    ----------------------------------|------------------18--19--19--19--||
    ----------------------18--20--18--|--20--21--20--21------------------||
    --21--18--21--18--21--------------|----------------------------------||
    ----------------------------------|----------------------------------||
    ----------------------------------|----------------------------------||
    ----------------------------------|----------------------------------||
    soloda 2.gitar için C akorunu kullanblrsiniz




    tekrar nakarat

    C5 A5 B5
    ARANIZDAN ÇIKMADI BİR ADAM
    C5 A5 B5
    YOLUNUZA ERMEDİ HİÇ KAFAM
    C5 A5 B5
    KAÇAMADIM O DA BENİM HATAM
    C5 A5 B5
    GEÇMİŞ OLSUN ŞİMDİ HERŞEY YALAN

    ***NKARATTA C-Am-B akorlarıyla arpej(akor da yapablrsiniz) de var
    ilk mısradan sonra B5akorundan sonra sole yapbilirsiniz:

    E||--------------------------||
    B||--------------------------||
    G||--------------------------||
    D||--10--10--10--10--10--10--||
    A||--9---9---9---9---9---9---||
    E||--7---7---7---7---7---7---||

    buda son iki mısrada calınıyo gibi geldi (fill diyebiliriz)

    E||----------------------------------|----------------------------------|
    B||----------------------------------|----------------------------------|
    G||----------------------------------|----------------------------------| ÜÇÜNCÜ MISRADA BURASI
    D||--17--17--17--17--17--14--14--14--|--14--14--16--16--16--16--16--16--|
    A||----------------------------------|----------------------------------|
    E||----------------------------------|----------------------------------|


    ----------------------------------|------------------------------|------------------------||
    ----------------------------------|------------------------------|------------------------||
    ----------------------------------|------------------------------|------------------------|| SON MISRADA BURASI
    --17--17--17--17--17--14--14--14--|--14--9--9/-16--16--16/-9--9/-|--16--16--16--16--16----||
    ----------------------------------|------------------------------|------------------------||
    ----------------------------------|------------------------------|------------------------||



    ::::::::::::::::::::::::::
    ::::::::::::::::::::::::::::::::::
    ::::::::::::::::::::::::::::::::::::::::::::




  2. Alev
    Özel Üye

    Gitar Tabları Çalma Açıklamaları Makalesine henüz yorum yazılmamış. ilk yorumu siz yapın


Sponsor Bağlantılar
+ Yorum Gönder
5 üzerinden | Toplam : 0 kişi